Здравствуйте, гость ( Вход | Регистрация )



Гостевой доступ к форуму из Москвы: Телефоны: +7(495)7859696,7376201,7376233,7868796,7390241 Login: demo Password: demo
2 страниц V  1 2 >  
ОтветитьСоздать новую тему
> ТАБЫ, Ну кто знает,тот знает о чем речь.
Waffen SS №666
сообщение Jan 13 2006, 19:17
Сообщение #1


Активный пользователь
Group Icon

Группа: Moderators
Сообщений: 1 618
Регистрация: 22-November 05
Из: МОСВА-ВДНХ
Пользователь №: 195
Заходит на форум с полного инета.



Сограждане,официально открываем тему ТАБЫ.Кидаем ноты,табы,фаилы формата *gpt для прги Guitar Pro 4 ну и другие.Работаем на заказ.И бла бла бла и ля ля ля и т.д. xaxa.gif


--------------------
Изображение
Пользователь offlineПрофайлОтправить личное сообщение
Вернуться к началу страницы
+Цитировать сообщение
Daddy
сообщение Jan 13 2006, 19:58
Сообщение #2


Активный пользователь
Group Icon

Группа: Advanced
Сообщений: 2 115
Регистрация: 23-June 05
Из: Москва... ближе к ВДНХ
Пользователь №: 5
Заходит на форум с полного инета.



а куда гпшки кидать?


--------------------
Изображение
Пользователь offlineПрофайлОтправить личное сообщение
Вернуться к началу страницы
+Цитировать сообщение
Waffen SS №666
сообщение Jan 13 2006, 20:02
Сообщение #3


Активный пользователь
Group Icon

Группа: Moderators
Сообщений: 1 618
Регистрация: 22-November 05
Из: МОСВА-ВДНХ
Пользователь №: 195
Заходит на форум с полного инета.



Куда нить,а сюда не получаеться?


--------------------
Изображение
Пользователь offlineПрофайлОтправить личное сообщение
Вернуться к началу страницы
+Цитировать сообщение
ALEXRUS
сообщение Jan 13 2006, 23:28
Сообщение #4


Суперадминистратор
Group Icon

Группа: Administrators
Сообщений: 5 164
Регистрация: 23-June 05
Из: Москва, ЮЗАО
Пользователь №: 2
Заходит на форум с полного инета.



можно на файловые хостинги, однако не будет доступа с гостя

или в XXE


--------------------
Вот это поворот!
Пользователь offlineПрофайлОтправить личное сообщение
Вернуться к началу страницы
+Цитировать сообщение
Jester
сообщение Jan 20 2006, 12:27
Сообщение #5


Постоянный пользователь
***

Группа: Пользователи
Сообщений: 228
Регистрация: 4-December 05
Из: Чертаново
Пользователь №: 211
Заходит на форум с полного инета.



НУ чё. надо кому чё? у мя этого добра завались. Не помешает Лунная соната=)


--------------------
Опасайтесь человека, говорящего афоризмами. Он - дурак.
Пользователь offlineПрофайлОтправить личное сообщение
Вернуться к началу страницы
+Цитировать сообщение
Waffen SS №666
сообщение Feb 1 2006, 18:31
Сообщение #6


Активный пользователь
Group Icon

Группа: Moderators
Сообщений: 1 618
Регистрация: 22-November 05
Из: МОСВА-ВДНХ
Пользователь №: 195
Заходит на форум с полного инета.



"My Friend of Misery"

My Friend of Misery
written by Hetfield and Ulrich
as performed on Metallica
tab by Chris Binding


Bass Riff1
|-----10---------10---------10--14---------12---------10------|
|---------12---------12-------------12---------12---------12--|
|--0----------0----------0--------------0----------0----------|
|-------------------------------------------------------------|

|-----9---------9---------9--12---------10---------9------|
|--------10--------10------------10---------10--------10--|
|--0---------0---------0-------------0----------0---------|
|---------------------------------------------------------|

Bass Riff2
|-----10---------10---------10--14---------12---------10------|
|---------12---------12-------------12---------12---------12--|
|--0----------0----------0--------------0----------0----------|
|-------------------------------------------------------------|

|-----9---------9---------9--12---------10---------9--\--|
|--------10--------10------------10---------10-----------|
|--0---------0---------0-------------0----------0--------|
|--------------------------------------------------------|

Bass Riff3
|-------------------------------------------------------------------|
|-------------------------------------------------------------------|
|------------------------------3------------------------------------|
|--5-5-5-5-5-5-5-5-5-5-5-5-5-5---3-5-5-5-5-5-5-5-5-5-5-5-5-5-5-3-5--|

Bass Riff4
|-----------------|
|-----------------|
|-----------------|
|---5-------5--5--|

Bass Riff5
|--------------------------------------------------------------------|
|--------------------------------------------------------------------|
|------0-2-3-4-------0-0---0-2--2-0-----0-2-3-4-------0-0-1-2--------|
|--2-2---------0-0-0----------------2-2---------0-0-0---------0-0-0--|

Bass Riff6
|-----------------------------------|
|-----------------------------------|
|--------------------------------0--|
|--0-0-0-0-0-0-0-0-0-0-0-0-0-0-0----|

Bass Riff7
|--------------------------------------------------------------------------|
|--------------------------------------------------------------------------|
|--------------------------------------------------------------------------|
|--2-2-----0-1--2-2-----0-3--2-2-----0-1--2-2-----0-3--2-2---2-2-0-1--2-2--|

Bass Riff7 (cont.)
|------------------------------------------------|
|------------------------------------------------|
|--------------------------------------------9\--|
|--2-2-2-0-3-3-2-2-2-2-2-2-0-1-2-2-2-2-2-2-0-----|

Bass Riff8
|---------------------------------------------------------------|
|---------------------------------------------------------------|
|----------------------------------------0-2-3-4-----0-0-1-2----|
|--2-2-2-2-2-2-2-2-2-2-2-2-2-2-2-2-2-2-2---------0-----------0--|

Мой любимый переборчик на басу.

cool.gif


--------------------
Изображение
Пользователь offlineПрофайлОтправить личное сообщение
Вернуться к началу страницы
+Цитировать сообщение
Waffen SS №666
сообщение Feb 3 2006, 18:19
Сообщение #7


Активный пользователь
Group Icon

Группа: Moderators
Сообщений: 1 618
Регистрация: 22-November 05
Из: МОСВА-ВДНХ
Пользователь №: 195
Заходит на форум с полного инета.



"Poor Touring Me Solos"

Bass doodle (with exerpts of My Friend of Misery and Welcome Home Sanitarium)
as performed by Newstead and Hammett
live on Cunning Stunts
tab by john milite



G||--------14--16--14--13------|--14--16--14--13----13h14-13------|
D||*---------------------------|------------------------------16--|
A||*---------------------------|----------------------------------|
E||---0------------------------|----------------------------------|

------------------------------|--------------------------||
--14----------19--------------|----------19-------------*||
------16------------16--------|----16----------16-------*||
----------17--------------17--|----------------------0---||

------------11-----------11--|---------11---------11---------|
-----12-----------12---------|--12---------12---------12-----|
--0------0------------0------|------0----------0----------0--|
-----------------------------|-------------------------------|

-------------12---------|-------------12--------|------------11---------11--|
--------9----------9----|--------9--------------|----------------12---------|
--10--------------------|--10-------------------|--0--0--------------0------|
------------------------|-----------------------|---------------------------|

---------11---------11---------|-------------12---------|
--12---------12---------12-----|--------9----------9----|
------0----------0----------0--|--10--------------------|
-------------------------------|------------------------|

-------------12---------||---------14--16--14--13------|
--------9----------9----||*----------------------------|
--10--------------------||*----------------------------|
------------------------||---0--0----------------------|

--14--16--14--13----13h14-13------|------------------------------|
------------------------------16--|--14----------19--------------|
----------------------------------|------16------------16--------|
----------------------------------|----------17--------------17--|

--------------------------||------------11-----------11--|
----------19-------------*||-----12-----------12---------|
----16----------16-------*||--0------0------------0------|
----------------------0---||-----------------------------|

---------11---------11---------|-------------12---------|
--12---------12---------12-----|--------9----------9----|
------0----------0----------0--|--10--------------------|
-------------------------------|------------------------|

-------------12--------|------------11---------11--|
--------9--------------|----------------12---------|
--10-------------------|--0--0--------------0------|
-----------------------|---------------------------|

---------11---------11---------|-------------12---------|--12----------------|
--12---------12---------12-----|--------9----------9----|--9-----------------|
------0----------0----------0--|--10--------------------|--10----------------|
-------------------------------|------------------------|--------------------|

-----10---------10---------10--|--14---------12---------10-----|
---------12---------12---------|------12---------12------------|
--0----------0----------0------|----------0----------0------0--|
-------------------------------|-------------------------------|

-----9---------9---------9--|--12---------10---------9-----|
--------10--------10--------|------10---------10-----------|
--0---------0---------0-----|----------0----------0-----0--|
----------------------------|------------------------------|

-----10---------10---------10--|--14---------12---------10-----|
---------12---------12---------|------12---------12------------|
--0----------0----------0------|----------0----------0------0--|
-------------------------------|-------------------------------|

-----9---------9---------9--|--12---------10---------9-----|
--------10--------10--------|------10---------10-----------|
--0---------0---------0-----|----------0----------0-----0--|
----------------------------|------------------------------|

-----10---------10---------10--|--14---------12---------10-----|
---------12---------12---------|------12---------12------------|
--0----------0----------0------|----------0----------0------0--|
-------------------------------|-------------------------------|

-----9---------9---------9--|--12---------10---------9-----|
--------10--------10--------|------10---------10-----------|
--0---------0---------0-----|----------0----------0-----0--|
----------------------------|------------------------------|

-----10---------10---------10--|--14---------12---------10-----|
---------12---------12---------|------12---------12------------|
--0----------0----------0------|----------0----------0------0--|
-------------------------------|-------------------------------|

-----9---------9---------9--|--12---------10---------9-----|
--------10--------10--------|------10---------10-----------|
--0---------0---------0-----|----------0----------0-----0--|
----------------------------|------------------------------|

--------7-----4--------5--|----------5--------5-----|--------7-----4--------5--|
-----5-----5-----5--------|----7--------7--------7--|-----5-----5-----5--------|
--0-----------------0-----|-------0--------0--------|--0-----------------0-----|
--------------------------|-------------------------|--------------------------|

----------5--------5-----|--------7-----4--------5--|----------5--------5-----|
----7--------7--------7--|-----5-----5-----5--------|----7--------7--------7--|
-------0--------0--------|--0-----------------0-----|-------0--------0--------|
-------------------------|--------------------------|-------------------------|

--------7-----4--------5--|----------7--------9------||
-----5-----5-----5--------|----7--------9--------10--||
--0-----------------0-----|-------0--------0---------||
--------------------------|--------------------------||

Еще одна темка от Джейсона Нюстеда. xaxa.gif


--------------------
Изображение
Пользователь offlineПрофайлОтправить личное сообщение
Вернуться к началу страницы
+Цитировать сообщение
Frut
сообщение Feb 6 2006, 19:35
Сообщение #8


Заведующий всем
Group Icon

Группа: Administrators
Сообщений: 3 921
Регистрация: 3-January 06
Из: Люберцы
Пользователь №: 240
Заходит на форум с полного инета.



Пиплы, а в курсах, что вышла Guitar Pro 5?
Разработчики нахимичили со звуковым движком, так что он стал более реалистичным.
Бас, драмы, акустика звучат неплохо. Дисторшн ужасен, вобщем на любителя. Главное, чтобы у вас была версия с RSE (137 мегов, если не ошибаюсь).

Пиплы, а в курсах, что вышла Guitar Pro 5?
Разработчики нахимичили со звуковым движком, так что он стал более реалистичным.
Бас, драмы, акустика звучат неплохо. Дисторшн ужасен, вобщем на любителя. Главное, чтобы у вас была версия с RSE (137 мегов, если не ошибаюсь).
Пользователь offlineПрофайлОтправить личное сообщение
Вернуться к началу страницы
+Цитировать сообщение
Waffen SS №666
сообщение Feb 6 2006, 20:34
Сообщение #9


Активный пользователь
Group Icon

Группа: Moderators
Сообщений: 1 618
Регистрация: 22-November 05
Из: МОСВА-ВДНХ
Пользователь №: 195
Заходит на форум с полного инета.



Уже есть.Он меня не порадовал потому,что замудрили с ним.Хотя одновременно что не делай все к лучшему.


--------------------
Изображение
Пользователь offlineПрофайлОтправить личное сообщение
Вернуться к началу страницы
+Цитировать сообщение
Daddy
сообщение Feb 6 2006, 22:22
Сообщение #10


Активный пользователь
Group Icon

Группа: Advanced
Сообщений: 2 115
Регистрация: 23-June 05
Из: Москва... ближе к ВДНХ
Пользователь №: 5
Заходит на форум с полного инета.



скчивал. ставил. забил через два раза и удалил...
юзать без rse бессмысленно, а с ним - архисильно вешать машину и иметь в результате паршивенький звучок с претензиями на реалистичность...

вернулся на четвертую


--------------------
Изображение
Пользователь offlineПрофайлОтправить личное сообщение
Вернуться к началу страницы
+Цитировать сообщение
Waffen SS №666
сообщение Feb 10 2006, 18:31
Сообщение #11


Активный пользователь
Group Icon

Группа: Moderators
Сообщений: 1 618
Регистрация: 22-November 05
Из: МОСВА-ВДНХ
Пользователь №: 195
Заходит на форум с полного инета.



Согласен с тобой Daddy


--------------------
Изображение
Пользователь offlineПрофайлОтправить личное сообщение
Вернуться к началу страницы
+Цитировать сообщение
Frut
сообщение Feb 16 2006, 18:45
Сообщение #12


Заведующий всем
Group Icon

Группа: Administrators
Сообщений: 3 921
Регистрация: 3-January 06
Из: Люберцы
Пользователь №: 240
Заходит на форум с полного инета.



У меня на AMD 2300+ c 512 и RSE всё нормально, редко-редко чё-нить только заедает со множеством дорожек.
Пользователь offlineПрофайлОтправить личное сообщение
Вернуться к началу страницы
+Цитировать сообщение
Daddy
сообщение Feb 16 2006, 18:46
Сообщение #13


Активный пользователь
Group Icon

Группа: Advanced
Сообщений: 2 115
Регистрация: 23-June 05
Из: Москва... ближе к ВДНХ
Пользователь №: 5
Заходит на форум с полного инета.



хех, а ты попробуй на p-733 с 128 метрами biggrin.gif degenerat.gif

Сообщение отредактировал Daddy - Feb 16 2006, 18:47


--------------------
Изображение
Пользователь offlineПрофайлОтправить личное сообщение
Вернуться к началу страницы
+Цитировать сообщение
Мэтр
сообщение Feb 16 2006, 19:04
Сообщение #14


Гиперактивный пользователь
Group Icon

Группа: Advanced
Сообщений: 3 342
Регистрация: 23-June 05
Пользователь №: 9
Заходит на форум с полного инета.



Daddy, а как же ты во фруктах тогда творишь?
Там ведь синты некоторые ого-го как жрут!


--------------------
Мещане... Ррррр!
Изображение[
Пользователь offlineПрофайлОтправить личное сообщение
Вернуться к началу страницы
+Цитировать сообщение
Daddy
сообщение Feb 16 2006, 19:15
Сообщение #15


Активный пользователь
Group Icon

Группа: Advanced
Сообщений: 2 115
Регистрация: 23-June 05
Из: Москва... ближе к ВДНХ
Пользователь №: 5
Заходит на форум с полного инета.



ну приходится особо с ними не заморачиваться...
или задержку побольше ставить (какой-то там ползунок в настройках audio) ...


--------------------
Изображение
Пользователь offlineПрофайлОтправить личное сообщение
Вернуться к началу страницы
+Цитировать сообщение
Waffen SS №666
сообщение Feb 16 2006, 19:48
Сообщение #16


Активный пользователь
Group Icon

Группа: Moderators
Сообщений: 1 618
Регистрация: 22-November 05
Из: МОСВА-ВДНХ
Пользователь №: 195
Заходит на форум с полного инета.



Фрукты,нет с ними я незаморачиваюсь.Просто нет,и неумею в них работать.


--------------------
Изображение
Пользователь offlineПрофайлОтправить личное сообщение
Вернуться к началу страницы
+Цитировать сообщение
Мэтр
сообщение Aug 27 2006, 15:41
Сообщение #17


Гиперактивный пользователь
Group Icon

Группа: Advanced
Сообщений: 3 342
Регистрация: 23-June 05
Пользователь №: 9
Заходит на форум с полного инета.



Да чё там уметь-то?


--------------------
Мещане... Ррррр!
Изображение[
Пользователь offlineПрофайлОтправить личное сообщение
Вернуться к началу страницы
+Цитировать сообщение
Waffen SS №666
сообщение Aug 27 2006, 20:47
Сообщение #18


Активный пользователь
Group Icon

Группа: Moderators
Сообщений: 1 618
Регистрация: 22-November 05
Из: МОСВА-ВДНХ
Пользователь №: 195
Заходит на форум с полного инета.



Просто,не мое.А гитар про5,я там уже шпец.biggrin.gif


--------------------
Изображение
Пользователь offlineПрофайлОтправить личное сообщение
Вернуться к началу страницы
+Цитировать сообщение
Daddy
сообщение Aug 27 2006, 20:53
Сообщение #19


Активный пользователь
Group Icon

Группа: Advanced
Сообщений: 2 115
Регистрация: 23-June 05
Из: Москва... ближе к ВДНХ
Пользователь №: 5
Заходит на форум с полного инета.



слушай, Waffen, а можешь скинуть свой гп-криатив?
на форуме можно файлики кидать? заархивированные гп весят ваще ничего не весятbiggrin.gif


--------------------
Изображение
Пользователь offlineПрофайлОтправить личное сообщение
Вернуться к началу страницы
+Цитировать сообщение
Metallica
сообщение Mar 26 2007, 20:29
Сообщение #20


Oбиженный жизнью заморыш
Group Icon

Группа: Administrators
Сообщений: 2 136
Регистрация: 4-August 06
Из: Матрица
Пользователь №: 504
Имя: TONY MONTANO
Настроение: KILL EM ALL
Заходит на форум с гостевика или полного инета.



Metallica - Creeping Death
from Ride the Lightning

intro
||--------------------|----------|------------------------|-----------||
||o-------------------|----------|------------------------|----------o||
||o-----------------7-|----------|-----------------7--5---|----------o||
||---0--0--0--0--0----|----------|--0--0--0--0--0---------|-----------||


||-------------------|---------|----------------------|---------------||
||o------------------|---------|----------------------|--------------o||
||o----------------7-|---------|----------------7--5--|------5-------o||
||--0--0--0--0--0----|---------|-0--0--0--0--0--------|---------------||

play 4x->
|-----------|--------|--------|-16--17--16\-||-------------------------|
|-----------|--------|--------|-------------||o------------------------|
|-----------|--------|--------|-------------||o------------------------|
|--5--3--2--|---0----|--------|-------------||---0--0--0--0--0--0--0--0|


|-------------------------||
|------------------------o||
|-------------2--3--2--0-o||
|-0--0--0--0--------------||

play 4x
||---------------------|-------------------------||
||o--------------------|------------------------o||
||o--------------------|------------------------o||
||---0--0--3--0--0--3--|-0--0--2--2--2--2--2--2--||


||--------------------------|--------------------------||
||o-------------------------|-------------------------o||
||o-------------------------|-------------2--3--2--0--o||
||---0--0--0--0--0--0--0--0-|-0--0--0--0---------------||


Verses
||--------------------------|------------------------|------------------
||o-------------------------|------------------------|------------------
||o-------------------------|-------------2--3--2--0-|------------------
||---0--0--0--0--0--0--0--0-|-0--0--0--0-------------|-0--0--0--0--0--0-


-------|------------------------|------------------------|------------------------|
-------|------------------------|------------------------|------------------------|
-------|-------------2--3--2--0-|------------------------|-------------2--3--2--0-|
--0--0-|-0--0--0--0-------------|-0--0--0--0--0--0--0--0-|-0--0--0--0-------------|


|-----------------------|------------------------|
|-----------------------|------------------------|
|-----------------------|-------------2--3--2--0-|
|0--0--0--0--0--0--0--0-|-0--0--0--0-------------|


|-----------------------|------------------------|
|-----------------------|------------------------|
|-----------------------|-------------2--3--2--0-|
|0--0--0--0--0--0--0--0-|-0--0--0--0-------------|


|-----------------------|------------------------|
|-----------------------|------------------------|
|-----------------------|-------------2--3--2--0-|
|0--0--0--0--0--0--0--0-|-0--0--0--0-------------|


|-----------------------|------------------------|
|-----------------------|------------------------|
|-----------------------|-------------2--3--2--0-|
|0--0--0--0--0--0--0--0-|-0--0--0--0-------------|


|-----------------------|------------------------|
|-----------------------|------------------------|
|-----------------------|-------------2--3--2--0-|
|0--0--0--0--0--0--0--0-|-0--0--0--0-------------|


|------------------|------------------------|--------------------------|
|------------------|------------------------|--------------------------|
|------------------|------------------------|--------------------------|
|-0--0--3--0--0--3-|-0--0--2--2--2--2--2--2-|-0--0--3--0--0--3---------|


|------------------------|------------------|
|------------------------|------------------|
|------------------------|------------------|
|-0--0--2--2--2--2--2--2-|-0--0--3--0--0--3-|


|------------------------|------------------|
|------------------------|------------------|
|------------------------|------------------|
|-0--0--2--2--2--2--2--2-|-0--0--3--0--0--3-|


Chorus
|-------------------|------------------|------------------|-------------
|-------------------|------------------|------------------|-------------
|-------------------|-------------3--5-|-5--5--5--5--5--5-|-------------
|--0--0--0--0--0--0-|-0--0--0--0-------|------------------|-1--1--1--1--


------------|------------------|------------------|--------------------|
------------|------------------|------------------|--------------------|
------------|------------------|-------------3--5-|-5--5--5--5--5--5---|
--3--3--3\--|-0--0--0--0--0--0-|-0--0--0--0-------|--------------------|


|------------------|------------------|------------------|--------------
|------------------|------------------|------------------|--------------
|-5--5--5--5--8--8-|-7--7--7--7--7--7-|-7--7--7--7--8--8-|-5--5--5--5--5
|------------------|------------------|------------------|--------------


----|------------|------------------------|----------------------------|
----|------------|------------------------|----------------------------|
-5--|-5--2--4----|------------------------|-------------2--3--2--0-----|
----|----------2-|-0--0--0--0--0--0--0--0-|-0--0--0--0-----------------|


|------------------------|------------------------|--------------------|
|------------------------|------------------------|--------------------|
|------------------------|-------------2--3--2--0-|----7--------7------|
|-0--0--0--0--0--0--0--0-|-0--0--0--0-------------|-0-----0--0-----0---|


|------------------|---------------------|---------------||
|------------------|---------------------|--------------o||
|-7--5----7--5--7--|-5--7--5-----4----0--|-2--2--4------o||
|------------------|---------------------|----------2----||



Guitar Solo
||------------------------|------------------------|--------------------
||o-----------------------|------------------------|--------------------
||o-----------------------|-------------2--3--2--0-|-0--0--0--0--0--0---
||-0--0--0--0--0--0--0--0-|-0--0--0--0-------------|--------------------

play 4x play 4x
-------|-------------------||--------------------|-----------------------||
-------|------------------o||o-------------------|----------------------o||
--0--0-|-0--0--0--0--0--3-o||o-------------------|----------------------o||
-------|-------------------||---0--0--3--0--0--3-|-0--0--2--2--2--2--2-2-||


|------------------|------------------|------------------|--------------
|------------------|------------------|------------------|--------------
|------------------|-------------3--5-|-5--5--5--5--5--5-|-5--5--5--5---
|-0--0--0--0--0--0-|-0--0--0--0-------|------------------|--------------


--------|------------------|------------------|------------------------|
--------|------------------|------------------|------------------------|
--8--8--|-7--7--7--7--7--7-|-7--7--7--7--3--5-|-5--5--5--5--5--5-------|
--------|------------------|------------------|------------------------|


|----------------------|------------------|----------------------------|
|----------------------|------------------|----------------------------|
|----------------------|------------------|-------------3--5-----------|
|-1--1--1--1--3--3--3\-|-0--0--0--0--0--0-|-0--0--0--0-----------------|



|------------------|------------------|------------------|--------------
|------------------|------------------|------------------|--------------
|-5--5--5--5--5--5-|-5--5--5--5--8--8-|-7--7--7--7--7--7-|-7--7--7--7---
|------------------|------------------|------------------|--------------


-------|------------------|--------------|-----------------------------|
-------|------------------|--------------|-----------------------------|
--3--5-|-5--5--5--5--5--5-|--5--2--4-----|-----------------------------|
-------|------------------|-----------2--|-----0-----------------------|


Bridge
||---------------|------------|-----------------|---------------------||
||o--------------|------------|-----------------|--------------------o||
||o---7--7--7--7-|-8--8--8--5-|-7---------------|--------------------o||
||-0-------------|------------|------0--0--0--0-|-3--3--3--1--1-------||


Die... play 4x
||---------------------|-------------|---------------|----------------||
||o--------------------|-------------|---------------|---------------o||
||o--------7--7--7--7--|-8--8--8--5--|-7-------------|---------------o||
||----0----------------|-------------|----0--0--0--0-|-3--3--3--1--1--||


|------------|-------------------|
|------------|-------------------|
|------------|-----------5--5\---|
|-0----------|--0--1--3----------|


||-----------------------------|------------------|---------------------|
||o-----------------------2----|------------------|--------------------3|
||o-----------------------2----|------------------|--------------------3|
||----0--0--0--0--0--0--0------|-0--0--0--0--3--2-|-0--0--0--0--0--0--0-|


|--------------------||
|-------------------o||
|-3--3--3--3--5--5--o||
|--------------------||

1.2. 3.
||----------------------------|-------------|-----------------|---------||
||o---------------------------|-------------|-----------------|--------o||
||o-------------7--5-----3--2-|-------------|--3---2---0---3--|--------o||
||--0--0----------------------|-------------|-----------------|---------||


||--------------------|--------|---------------------|----------------||
||o-------------------|--------|---------------------|---------------o||
||o-----------------7-|--------|----------------7--5-|---------------o||
||---0--0--0--0--0----|--------|-0--0--0--0--0-------|----------------||


||--------------------|--------|----------------------|---------------||
||o-------------------|--------|----------------------|--------------o||
||o-----------------7-|---7----|----------------7--5--|------5-------o||
||---0--0--0--0--0----|--------|-0--0--0--0--0--------|---------------||

tremolo picking==============================
|----------------------|-----------------------------------------------|
|----------------------|-----------------------------------------------|
|----------------------|-----------------------------------------------|
|----5------3------2---|---0----0----0---0--0---0----0-----0-----------|
И в конце КУ КУ !!


Tier (Вовка) от если сможеш это сыграть то круче тя тока иица

Сообщение отредактировал Metallica - Mar 26 2007, 20:35


--------------------
Самые лучшие отзывы обо мне : [лопатой мозги вправить ], [Oбиженный жизнью заморыш],[ грубый и туповатый] , [не хватает интеллекта смотреть на мир шире. И все враги.], [озлобленный мальчик, помешанный на «членах» ] , [узколобость и шовинизм - это к имбецилам и другим болезням]
Пользователь offlineПрофайлОтправить личное сообщение
Вернуться к началу страницы
+Цитировать сообщение

2 страниц V  1 2 >
ОтветитьСоздать новую тему
1 чел. читают эту тему (гостей: 1, скрытых пользователей: 0)
Пользователей: 0

 

- Текстовая версия Сейчас: 22nd April 2021 - 04:40
 
     
Rambler's Top100 службы мониторинга серверов
Gentoo Powered Lighttpd Powered